  0
SECTION
  2
HEADER
  9
$ACADVER
  1
AC1015
  9
$ACADMAINTVER
 70
     6
  9
$DWGCODEPAGE
  3
ANSI_1254
  9
$INSBASE
 10
0.0
 20
0.0
 30
0.0
  9
$EXTMIN
 10
0.0
 20
0.0
 30
0.0
  9
$EXTMAX
 10
279.4
 20
215.9
 30
0.0
  9
$LIMMIN
 10
0.0
 20
0.0
  9
$LIMMAX
 10
279.4
 20
215.9
  9
$ORTHOMODE
 70
     0
  9
$REGENMODE
 70
     1
  9
$FILLMODE
 70
     1
  9
$QTEXTMODE
 70
     0
  9
$MIRRTEXT
 70
     1
  9
$LTSCALE
 40
1.0
  9
$ATTMODE
 70
     1
  9
$TEXTSIZE
 40
3.5
  9
$TRACEWID
 40
1.0
  9
$TEXTSTYLE
  7
Standard
  9
$CLAYER
  8
0
  9
$CELTYPE
  6
ByLayer
  9
$CECOLOR
 62
   256
  9
$CELTSCALE
 40
1.0
  9
$DISPSILH
 70
     0
  9
$DIMSCALE
 40
1.0
  9
$DIMASZ
 40
3.5
  9
$DIMEXO
 40
1.0
  9
$DIMDLI
 40
3.75
  9
$DIMRND
 40
0.0
  9
$DIMDLE
 40
0.0
  9
$DIMEXE
 40
1.0
  9
$DIMTP
 40
0.0
  9
$DIMTM
 40
0.0
  9
$DIMTXT
 40
3.5
  9
$DIMCEN
 40
2.5
  9
$DIMTSZ
 40
0.0
  9
$DIMTOL
 70
     0
  9
$DIMLIM
 70
     0
  9
$DIMTIH
 70
     1
  9
$DIMTOH
 70
     1
  9
$DIMSE1
 70
     0
  9
$DIMSE2
 70
     0
  9
$DIMTAD
 70
     1
  9
$DIMZIN
 70
     0
  9
$DIMBLK
  1

  9
$DIMASO
 70
     1
  9
$DIMSHO
 70
     1
  9
$DIMPOST
  1

  9
$DIMAPOST
  1

  9
$DIMALT
 70
     0
  9
$DIMALTD
 70
     3
  9
$DIMALTF
 40
0.0393700787
  9
$DIMLFAC
 40
1.0
  9
$DIMTOFL
 70
     1
  9
$DIMTVP
 40
0.0
  9
$DIMTIX
 70
     0
  9
$DIMSOXD
 70
     0
  9
$DIMSAH
 70
     0
  9
$DIMBLK1
  1

  9
$DIMBLK2
  1

  9
$DIMSTYLE
  2
ISO-25
  9
$DIMCLRD
 70
     0
  9
$DIMCLRE
 70
     0
  9
$DIMCLRT
 70
     0
  9
$DIMTFAC
 40
1.0
  9
$DIMGAP
 40
1.524
  9
$DIMJUST
 70
     0
  9
$DIMSD1
 70
     0
  9
$DIMSD2
 70
     0
  9
$DIMTOLJ
 70
     0
  9
$DIMTZIN
 70
     0
  9
$DIMALTZ
 70
     0
  9
$DIMALTTZ
 70
     0
  9
$DIMUPT
 70
     0
  9
$DIMDEC
 70
     2
  9
$DIMTDEC
 70
     2
  9
$DIMALTU
 70
     2
  9
$DIMALTTD
 70
     3
  9
$DIMTXSTY
  7
Standard
  9
$DIMAUNIT
 70
     0
  9
$DIMADEC
 70
     2
  9
$DIMALTRND
 40
0.0
  9
$DIMAZIN
 70
     0
  9
$DIMDSEP
 70
    44
  9
$DIMATFIT
 70
     3
  9
$DIMFRAC
 70
     0
  9
$DIMLDRBLK
  1

  9
$DIMLUNIT
 70
     2
  9
$DIMLWD
 70
    -2
  9
$DIMLWE
 70
    -2
  9
$DIMTMOVE
 70
     0
  9
$LUNITS
 70
     2
  9
$LUPREC
 70
     2
  9
$SKETCHINC
 40
1.0
  9
$FILLETRAD
 40
10.0
  9
$AUNITS
 70
     0
  9
$AUPREC
 70
     2
  9
$MENU
  1
.
  9
$ELEVATION
 40
0.0
  9
$PELEVATION
 40
0.0
  9
$THICKNESS
 40
0.0
  9
$LIMCHECK
 70
     0
  9
$CHAMFERA
 40
0.0
  9
$CHAMFERB
 40
0.0
  9
$CHAMFERC
 40
0.0
  9
$CHAMFERD
 40
0.0
  9
$SKPOLY
 70
     0
  9
$TDCREATE
 40
2458985.706076007
  9
$TDUCREATE
 40
2458985.581076007
  9
$TDUPDATE
 40
2458985.706076389
  9
$TDUUPDATE
 40
2458985.581076389
  9
$TDINDWG
 40
0.0000000116
  9
$TDUSRTIMER
 40
0.0000000116
  9
$USRTIMER
 70
     1
  9
$ANGBASE
 50
0.0
  9
$ANGDIR
 70
     0
  9
$PDMODE
 70
     0
  9
$PDSIZE
 40
-1.0
  9
$PLINEWID
 40
0.0
  9
$SPLFRAME
 70
     0
  9
$SPLINETYPE
 70
     6
  9
$SPLINESEGS
 70
     8
  9
$HANDSEED
  5
F1
  9
$SURFTAB1
 70
     6
  9
$SURFTAB2
 70
     6
  9
$SURFTYPE
 70
     6
  9
$SURFU
 70
     6
  9
$SURFV
 70
     6
  9
$UCSBASE
  2

  9
$UCSNAME
  2

  9
$UCSORG
 10
0.0
 20
0.0
 30
0.0
  9
$UCSXDIR
 10
1.0
 20
0.0
 30
0.0
  9
$UCSYDIR
 10
0.0
 20
1.0
 30
0.0
  9
$UCSORTHOREF
  2

  9
$UCSORTHOVIEW
 70
     0
  9
$UCSORGTOP
 10
0.0
 20
0.0
 30
0.0
  9
$UCSORGBOTTOM
 10
0.0
 20
0.0
 30
0.0
  9
$UCSORGLEFT
 10
0.0
 20
0.0
 30
0.0
  9
$UCSORGRIGHT
 10
0.0
 20
0.0
 30
0.0
  9
$UCSORGFRONT
 10
0.0
 20
0.0
 30
0.0
  9
$UCSORGBACK
 10
0.0
 20
0.0
 30
0.0
  9
$PUCSBASE
  2

  9
$PUCSNAME
  2

  9
$PUCSORG
 10
0.0
 20
0.0
 30
0.0
  9
$PUCSXDIR
 10
1.0
 20
0.0
 30
0.0
  9
$PUCSYDIR
 10
0.0
 20
1.0
 30
0.0
  9
$PUCSORTHOREF
  2

  9
$PUCSORTHOVIEW
 70
     0
  9
$PUCSORGTOP
 10
0.0
 20
0.0
 30
0.0
  9
$PUCSORGBOTTOM
 10
0.0
 20
0.0
 30
0.0
  9
$PUCSORGLEFT
 10
0.0
 20
0.0
 30
0.0
  9
$PUCSORGRIGHT
 10
0.0
 20
0.0
 30
0.0
  9
$PUCSORGFRONT
 10
0.0
 20
0.0
 30
0.0
  9
$PUCSORGBACK
 10
0.0
 20
0.0
 30
0.0
  9
$USERI1
 70
     0
  9
$USERI2
 70
     0
  9
$USERI3
 70
     0
  9
$USERI4
 70
     0
  9
$USERI5
 70
     0
  9
$USERR1
 40
0.0
  9
$USERR2
 40
0.0
  9
$USERR3
 40
0.0
  9
$USERR4
 40
0.0
  9
$USERR5
 40
0.0
  9
$WORLDVIEW
 70
     1
  9
$SHADEDGE
 70
     3
  9
$SHADEDIF
 70
    70
  9
$TILEMODE
 70
     1
  9
$MAXACTVP
 70
    64
  9
$PINSBASE
 10
0.0
 20
0.0
 30
0.0
  9
$PLIMCHECK
 70
     0
  9
$PEXTMIN
 10
1.0000000000E+20
 20
1.0000000000E+20
 30
1.0000000000E+20
  9
$PEXTMAX
 10
-1.0000000000E+20
 20
-1.0000000000E+20
 30
-1.0000000000E+20
  9
$PLIMMIN
 10
0.0
 20
0.0
  9
$PLIMMAX
 10
420.0
 20
297.0
  9
$UNITMODE
 70
     0
  9
$VISRETAIN
 70
     1
  9
$PLINEGEN
 70
     0
  9
$PSLTSCALE
 70
     1
  9
$TREEDEPTH
 70
  3020
  9
$CMLSTYLE
  2
Standard
  9
$CMLJUST
 70
     0
  9
$CMLSCALE
 40
20.0
  9
$PROXYGRAPHICS
 70
     1
  9
$MEASUREMENT
 70
     1
  9
$CELWEIGHT
370
    -1
  9
$ENDCAPS
280
     0
  9
$JOINSTYLE
280
     0
  9
$LWDISPLAY
290
     1
  9
$INSUNITS
 70
     4
  9
$HYPERLINKBASE
  1

  9
$STYLESHEET
  1

  9
$XEDIT
290
     1
  9
$CEPSNTYPE
380
     0
  9
$PSTYLEMODE
290
     1
  9
$FINGERPRINTGUID
  2
{fe518619-d546-49a9-aa12-ab23b6147ba9}
  9
$VERSIONGUID
  2
{FAEB1C32-E019-11D5-929B-00C0DF256EC4}
  9
$EXTNAMES
290
     1
  9
$PSVPSCALE
 40
0.0
  9
$OLESTARTUP
290
     0
  0
ENDSEC
  0
SECTION
  2
CLASSES
  0
CLASS
  1
ACDBDICTIONARYWDFLT
  2
AcDbDictionaryWithDefault
  3
ObjectDBX Classes
 90
        0
280
     0
281
     0
  0
CLASS
  1
VISUALSTYLE
  2
AcDbVisualStyle
  3
ObjectDBX Classes
 90
     4095
280
     0
281
     0
  0
CLASS
  1
MATERIAL
  2
AcDbMaterial
  3
ObjectDBX Classes
 90
     1153
280
     0
281
     0
  0
CLASS
  1
SCALE
  2
AcDbScale
  3
ObjectDBX Classes
 90
     1153
280
     0
281
     0
  0
CLASS
  1
TABLESTYLE
  2
AcDbTableStyle
  3
ObjectDBX Classes
 90
     4095
280
     0
281
     0
  0
CLASS
  1
MLEADERSTYLE
  2
AcDbMLeaderStyle
  3
ACDB_MLEADERSTYLE_CLASS
 90
     4095
280
     0
281
     0
  0
CLASS
  1
SUN
  2
AcDbSun
  3
SCENEOE
 90
     1153
280
     0
281
     0
  0
CLASS
  1
ACDBPLACEHOLDER
  2
AcDbPlaceHolder
  3
ObjectDBX Classes
 90
        0
280
     0
281
     0
  0
CLASS
  1
LAYOUT
  2
AcDbLayout
  3
ObjectDBX Classes
 90
        0
280
     0
281
     0
  0
ENDSEC
  0
SECTION
  2
TABLES
  0
TABLE
  2
VPORT
  5
8
330
0
100
AcDbSymbolTable
 70
     1
  0
VPORT
  5
29
330
8
100
AcDbSymbolTableRecord
100
AcDbViewportTableRecord
  2
*Active
 70
     0
 10
0.0
 20
0.0
 11
1.0
 21
1.0
 12
139.7
 22
107.95
 13
0.0
 23
0.0
 14
10.0
 24
10.0
 15
10.0
 25
10.0
 16
0.0
 26
0.0
 36
1.0
 17
0.0
 27
0.0
 37
0.0
 40
215.9
 41
1.2941176471
 42
50.0
 43
0.0
 44
0.0
 50
0.0
 51
0.0
 71
     0
 72
  2000
 73
     1
 74
     3
 75
     0
 76
     0
 77
     0
 78
     0
281
     0
 65
     1
110
0.0
120
0.0
130
0.0
111
1.0
121
0.0
131
0.0
112
0.0
122
1.0
132
0.0
 79
     0
146
0.0
  0
ENDTAB
  0
TABLE
  2
LTYPE
  5
5
330
0
100
AcDbSymbolTable
 70
     6
  0
LTYPE
  5
14
330
5
100
AcDbSymbolTableRecord
100
AcDbLinetypeTableRecord
  2
ByBlock
 70
     0
  3

 72
    65
 73
     0
 40
0.0
  0
LTYPE
  5
15
330
5
100
AcDbSymbolTableRecord
100
AcDbLinetypeTableRecord
  2
ByLayer
 70
     0
  3

 72
    65
 73
     0
 40
0.0
  0
LTYPE
  5
16
330
5
100
AcDbSymbolTableRecord
100
AcDbLinetypeTableRecord
  2
Continuous
 70
     0
  3
Solid line
 72
    65
 73
     0
 40
0.0
  0
LTYPE
  5
6E
330
5
100
AcDbSymbolTableRecord
100
AcDbLinetypeTableRecord
  2
HIDDEN
 70
     0
  3
Hidden __ __ __ __ __ __ __ __ __ __ __ __ __ __
 72
    65
 73
     2
 40
1.905
 49
1.27
 74
     0
 49
-0.635
 74
     0
  0
LTYPE
  5
6F
330
5
100
AcDbSymbolTableRecord
100
AcDbLinetypeTableRecord
  2
PHANTOM
 70
     0
  3
Phantom ______  __  __  ______  __  __  ______
 72
    65
 73
     6
 40
12.7
 49
6.35
 74
     0
 49
-1.27
 74
     0
 49
1.27
 74
     0
 49
-1.27
 74
     0
 49
1.27
 74
     0
 49
-1.27
 74
     0
  0
LTYPE
  5
70
330
5
100
AcDbSymbolTableRecord
100
AcDbLinetypeTableRecord
  2
CENTER
 70
     0
  3
Center ____ _ ____ _ ____ _ ____ _ ____ _ ____
 72
    65
 73
     4
 40
10.16
 49
6.35
 74
     0
 49
-1.27
 74
     0
 49
1.27
 74
     0
 49
-1.27
 74
     0
  0
LTYPE
  5
71
330
5
100
AcDbSymbolTableRecord
100
AcDbLinetypeTableRecord
  2
CENTERX2
 70
     0
  3
Center (2x) ________  __  ________  __  _____
 72
    65
 73
     4
 40
20.32
 49
12.7
 74
     0
 49
-2.54
 74
     0
 49
2.54
 74
     0
 49
-2.54
 74
     0
  0
LTYPE
  5
72
330
5
100
AcDbSymbolTableRecord
100
AcDbLinetypeTableRecord
  2
DOT2
 70
     0
  3
Dot (.5x) ........................................
 72
    65
 73
     2
 40
0.635
 49
0.0
 74
     0
 49
-0.635
 74
     0
  0
ENDTAB
  0
TABLE
  2
LAYER
  5
2
330
0
100
AcDbSymbolTable
 70
    17
  0
LAYER
  5
10
330
2
100
AcDbSymbolTableRecord
100
AcDbLayerTableRecord
  2
0
 70
     0
 62
     7
  6
Continuous
370
    -3
390
F
  0
LAYER
  5
73
330
2
100
AcDbSymbolTableRecord
100
AcDbLayerTableRecord
  2
FORMAT
 70
     0
 62
     7
  6
Continuous
370
    -3
390
F
  0
LAYER
  5
74
330
2
100
AcDbSymbolTableRecord
100
AcDbLayerTableRecord
  2
YARDIMCI_GEOMETRI
 70
     0
 62
    -6
  6
Continuous
290
     0
370
    -3
390
F
  0
LAYER
  5
75
330
2
100
AcDbSymbolTableRecord
100
AcDbLayerTableRecord
  2
SAYFA_CERCEVESI
 70
     0
 62
     7
  6
Continuous
370
    25
390
F
  0
LAYER
  5
76
330
2
100
AcDbSymbolTableRecord
100
AcDbLayerTableRecord
  2
ANTET
 70
     0
 62
     7
  6
Continuous
370
    -3
390
F
  0
LAYER
  5
77
330
2
100
AcDbSymbolTableRecord
100
AcDbLayerTableRecord
  2
OLCU
 70
     0
 62
   150
  6
Continuous
370
    -3
390
F
  0
LAYER
  5
78
330
2
100
AcDbSymbolTableRecord
100
AcDbLayerTableRecord
  2
METIN
 70
     0
 62
    96
  6
Continuous
370
    -3
390
F
  0
LAYER
  5
79
330
2
100
AcDbSymbolTableRecord
100
AcDbLayerTableRecord
  2
BALON
 70
     0
 62
     5
  6
Continuous
370
    -3
390
F
  0
LAYER
  5
7A
330
2
100
AcDbSymbolTableRecord
100
AcDbLayerTableRecord
  2
VURGU
 70
     0
 62
     7
  6
Continuous
370
    -3
390
F
  0
LAYER
  5
7B
330
2
100
AcDbSymbolTableRecord
100
AcDbLayerTableRecord
  2
SILIK
 70
     0
 62
     7
  6
Continuous
370
    -3
390
F
  0
LAYER
  5
7C
330
2
100
AcDbSymbolTableRecord
100
AcDbLayerTableRecord
  2
MODEL
 70
     0
 62
     7
  6
Continuous
370
    -3
390
F
  0
LAYER
  5
7D
330
2
100
AcDbSymbolTableRecord
100
AcDbLayerTableRecord
  2
DETAYLANDıRMA
 70
     0
 62
   190
  6
Continuous
370
    -3
390
F
  0
LAYER
  5
7E
330
2
100
AcDbSymbolTableRecord
100
AcDbLayerTableRecord
  2
TOLERANS
 70
     0
 62
   230
  6
Continuous
370
    -3
390
F
  0
LAYER
  5
7F
330
2
100
AcDbSymbolTableRecord
100
AcDbLayerTableRecord
  2
MERKEZ_CIZGILERI
 70
     0
 62
    30
  6
Continuous
370
    -3
390
F
  0
LAYER
  5
80
330
2
100
AcDbSymbolTableRecord
100
AcDbLayerTableRecord
  2
KESIT-DETAY_CIZGILERI
 70
     0
 62
     7
  6
Continuous
370
    -3
390
F
  0
LAYER
  5
81
330
2
100
AcDbSymbolTableRecord
100
AcDbLayerTableRecord
  2
\U+041E\U+0421\U+0415\U+0412\U+042B\U+0415
 70
     0
 62
     7
  6
Continuous
370
    -3
390
F
  0
LAYER
  5
82
330
2
100
AcDbSymbolTableRecord
100
AcDbLayerTableRecord
  2
\U+0412\U+041E\U+0414\U+042F\U+041D\U+042B\U+0415_\U+0417\U+041D\U+0410\U+041A\U+0418
 70
     0
 62
    11
  6
Continuous
370
    -3
390
F
  0
ENDTAB
  0
TABLE
  2
STYLE
  5
3
330
0
100
AcDbSymbolTable
 70
     1
  0
STYLE
  5
11
330
3
100
AcDbSymbolTableRecord
100
AcDbTextStyleTableRecord
  2
Standard
 70
     0
 40
0.0
 41
1.0
 50
0.0
 71
     0
 42
3.5
  3
txt
  4

  0
ENDTAB
  0
TABLE
  2
VIEW
  5
6
330
0
100
AcDbSymbolTable
 70
     0
  0
ENDTAB
  0
TABLE
  2
UCS
  5
7
330
0
100
AcDbSymbolTable
 70
     0
  0
ENDTAB
  0
TABLE
  2
APPID
  5
9
330
0
100
AcDbSymbolTable
 70
     1
  0
APPID
  5
12
330
9
100
AcDbSymbolTableRecord
100
AcDbRegAppTableRecord
  2
ACAD
 70
     0
  0
ENDTAB
  0
TABLE
  2
DIMSTYLE
  5
A
330
0
100
AcDbSymbolTable
 70
     1
100
AcDbDimStyleTable
  0
DIMSTYLE
105
27
330
A
100
AcDbSymbolTableRecord
100
AcDbDimStyleTableRecord
  2
ISO-25
 70
     0
 41
2.5
 42
0.625
 43
3.75
 44
1.25
 73
     0
 74
     0
 77
     1
 78
     8
140
2.5
141
2.5
143
0.0393700787
147
0.625
171
     3
172
     1
178
     0
271
     2
272
     2
274
     3
278
    44
283
     0
284
     8
340
11
  0
ENDTAB
  0
TABLE
  2
BLOCK_RECORD
  5
1
330
0
100
AcDbSymbolTable
 70
     2
  0
BLOCK_RECORD
  5
1F
330
1
100
AcDbSymbolTableRecord
100
AcDbBlockTableRecord
  2
*Model_Space
340
22
  0
BLOCK_RECORD
  5
1B
330
1
100
AcDbSymbolTableRecord
100
AcDbBlockTableRecord
  2
*Paper_Space
340
1E
  0
BLOCK_RECORD
  5
23
330
1
100
AcDbSymbolTableRecord
100
AcDbBlockTableRecord
  2
*Paper_Space0
340
26
  0
BLOCK_RECORD
  5
88
330
1
100
AcDbSymbolTableRecord
100
AcDbBlockTableRecord
  2
SW_CENTERMARKSYMBOL_0
340
0
102
{BLKREFS
331
93
102
}
  0
ENDTAB
  0
ENDSEC
  0
SECTION
  2
BLOCKS
  0
BLOCK
  5
20
330
1F
100
AcDbEntity
  8
0
100
AcDbBlockBegin
  2
*Model_Space
 70
     0
 10
0.0
 20
0.0
 30
0.0
  3
*Model_Space
  1

  0
ENDBLK
  5
21
330
1F
100
AcDbEntity
  8
0
100
AcDbBlockEnd
  0
BLOCK
  5
1C
330
1B
100
AcDbEntity
 67
     1
  8
0
100
AcDbBlockBegin
  2
*Paper_Space
 70
     0
 10
0.0
 20
0.0
 30
0.0
  3
*Paper_Space
  1

  0
ENDBLK
  5
1D
330
1B
100
AcDbEntity
 67
     1
  8
0
100
AcDbBlockEnd
  0
BLOCK
  5
24
330
23
100
AcDbEntity
  8
0
100
AcDbBlockBegin
  2
*Paper_Space0
 70
     0
 10
0.0
 20
0.0
 30
0.0
  3
*Paper_Space0
  1

  0
ENDBLK
  5
25
330
23
100
AcDbEntity
  8
0
100
AcDbBlockEnd
  0
BLOCK
  5
89
330
88
100
AcDbEntity
  8
0
100
AcDbBlockBegin
  2
SW_CENTERMARKSYMBOL_0
 70
     0
 10
0.0
 20
0.0
 30
0.0
  3
SW_CENTERMARKSYMBOL_0
  1

  0
LINE
  5
8B
330
88
100
AcDbEntity
  8
FORMAT
 62
     0
100
AcDbLine
 10
0.0
 20
0.0
 30
0.0
 11
0.0
 21
2.5
 31
0.0
  0
LINE
  5
8C
330
88
100
AcDbEntity
  8
FORMAT
 62
     0
100
AcDbLine
 10
0.0
 20
0.0
 30
0.0
 11
-2.5
 21
0.0
 31
0.0
  0
LINE
  5
8D
330
88
100
AcDbEntity
  8
FORMAT
 62
     0
100
AcDbLine
 10
0.0
 20
0.0
 30
0.0
 11
0.0
 21
-2.5
 31
0.0
  0
LINE
  5
8E
330
88
100
AcDbEntity
  8
FORMAT
 62
     0
100
AcDbLine
 10
0.0
 20
0.0
 30
0.0
 11
2.5
 21
0.0
 31
0.0
  0
LINE
  5
8F
330
88
100
AcDbEntity
  8
FORMAT
 62
     0
100
AcDbLine
 10
0.0
 20
5.0
 30
0.0
 11
0.0
 21
127.5
 31
0.0
  0
LINE
  5
90
330
88
100
AcDbEntity
  8
FORMAT
 62
     0
100
AcDbLine
 10
-5.0
 20
0.0
 30
0.0
 11
-127.5
 21
0.0
 31
0.0
  0
LINE
  5
91
330
88
100
AcDbEntity
  8
FORMAT
 62
     0
100
AcDbLine
 10
0.0
 20
-5.0
 30
0.0
 11
0.0
 21
-127.5
 31
0.0
  0
LINE
  5
92
330
88
100
AcDbEntity
  8
FORMAT
 62
     0
100
AcDbLine
 10
5.0
 20
0.0
 30
0.0
 11
127.5
 21
0.0
 31
0.0
  0
ENDBLK
  5
8A
330
88
100
AcDbEntity
  8
0
100
AcDbBlockEnd
  0
ENDSEC
  0
SECTION
  2
ENTITIES
  0
CIRCLE
  5
83
330
1F
100
AcDbEntity
  8
0
  6
Continuous
 62
     7
370
    25
100
AcDbCircle
 10
130.6810329512
 20
112.0420513222
 30
0.0
 40
125.0
  0
CIRCLE
  5
84
330
1F
100
AcDbEntity
  8
0
  6
Continuous
 62
     7
370
    25
100
AcDbCircle
 10
130.6810329512
 20
112.0420513222
 30
0.0
 40
110.2
  0
CIRCLE
  5
85
330
1F
100
AcDbEntity
  8
0
  6
Continuous
 62
     7
370
    25
100
AcDbCircle
 10
130.6810329512
 20
112.0420513222
 30
0.0
 40
109.6846975337651
  0
CIRCLE
  5
86
330
1F
100
AcDbEntity
  8
0
  6
Continuous
 62
     7
370
    25
100
AcDbCircle
 10
130.6810329512
 20
112.0420513222
 30
0.0
 40
79.81530246623497
  0
CIRCLE
  5
87
330
1F
100
AcDbEntity
  8
0
  6
Continuous
 62
     7
370
    25
100
AcDbCircle
 10
130.6810329512
 20
112.0420513222
 30
0.0
 40
79.30000000000004
  0
INSERT
  5
93
330
1F
100
AcDbEntity
  8
FORMAT
 62
     7
100
AcDbBlockReference
  2
SW_CENTERMARKSYMBOL_0
 10
130.6810329512
 20
112.0420513222
 30
0.0
  0
ARC
  5
94
330
1F
100
AcDbEntity
  8
0
  6
Continuous
 62
     7
370
    25
100
AcDbCircle
 10
-254.6057957665
 20
235.0420513222
 30
0.0
 40
2.000000000000028
100
AcDbArc
 50
63.7586503478
 51
90.0
  0
ARC
  5
95
330
1F
100
AcDbEntity
  8
0
  6
Continuous
 62
     7
370
    25
100
AcDbCircle
 10
-254.6057957665
 20
-10.9579486778
 30
0.0
 40
2.000000000000016
100
AcDbArc
 50
270.0
 51
296.2413496522
  0
LINE
  5
96
330
1F
100
AcDbEntity
  8
0
  6
Continuous
 62
     7
370
    25
100
AcDbLine
 10
-254.6057969603
 20
237.0420513222
 30
0.0
 11
-383.1396185133
 21
237.0420513222
 31
0.0
  0
LINE
  5
97
330
1F
100
AcDbEntity
  8
0
  6
Continuous
 62
     7
370
    25
100
AcDbLine
 10
-383.1396185133
 20
-12.9579486778
 30
0.0
 11
-254.6057969603
 21
-12.9579486778
 31
0.0
  0
LINE
  5
98
330
1F
100
AcDbEntity
  8
0
  6
Continuous
 62
     7
370
    25
100
AcDbLine
 10
-253.7214894119
 20
-12.7518283656
 30
0.0
 11
-183.557753292
 21
21.8359274337
 31
0.0
  0
LINE
  5
99
330
1F
100
AcDbEntity
  8
0
  6
Continuous
 62
     7
370
    25
100
AcDbLine
 10
-183.557753292
 20
202.2481752107
 30
0.0
 11
-253.7214894119
 21
236.83593101
 31
0.0
  0
ARC
  5
9A
330
1F
100
AcDbEntity
  8
0
  6
Continuous
 62
     7
370
    25
100
AcDbCircle
 10
-182.6734449426
 20
204.0420513222
 30
0.0
 40
2.0
100
AcDbArc
 50
243.7586503478
 51
270.0
  0
ARC
  5
9B
330
1F
100
AcDbEntity
  8
0
  6
Continuous
 62
     7
370
    25
100
AcDbCircle
 10
-182.6734449426
 20
20.0420513222
 30
0.0
 40
2.0
100
AcDbArc
 50
90.0
 51
116.2413496522
  0
LINE
  5
9C
330
1F
100
AcDbEntity
  8
0
  6
Continuous
 62
     7
370
    25
100
AcDbLine
 10
-78.1396262619
 20
202.0420548985
 30
0.0
 11
-182.673443881
 21
202.0420548985
 31
0.0
  0
LINE
  5
9D
330
1F
100
AcDbEntity
  8
0
  6
Continuous
 62
     7
370
    25
100
AcDbLine
 10
-182.673443881
 20
22.0420477459
 30
0.0
 11
-78.1396262619
 21
22.0420477459
 31
0.0
  0
LINE
  5
9E
330
1F
100
AcDbEntity
  8
0
  6
Continuous
 62
     7
370
    25
100
AcDbLine
 10
-383.1396185133
 20
237.0420513222
 30
0.0
 11
-383.1396185133
 21
-12.9579486778
 31
0.0
  0
LINE
  5
9F
330
1F
100
AcDbEntity
  8
0
  6
Continuous
 62
     7
370
    25
100
AcDbLine
 10
-78.1396262619
 20
202.0420548985
 30
0.0
 11
-78.1396262619
 21
22.0420477459
 31
0.0
  0
LINE
  5
A0
330
1F
100
AcDbEntity
  8
0
  6
Continuous
 62
     1
370
    25
100
AcDbLine
 10
-253.7214894119
 20
236.83593101
 30
0.0
 11
-253.7214894119
 21
-12.7518283656
 31
0.0
  0
LINE
  5
A1
330
1F
100
AcDbEntity
  8
0
  6
Continuous
 62
     1
370
    25
100
AcDbLine
 10
-254.6057969603
 20
237.0420513222
 30
0.0
 11
-254.6057969603
 21
-12.9579486778
 31
0.0
  0
LINE
  5
A2
330
1F
100
AcDbEntity
  8
0
  6
Continuous
 62
     1
370
    25
100
AcDbLine
 10
-183.557753292
 20
202.2481752107
 30
0.0
 11
-183.557753292
 21
21.8359274337
 31
0.0
  0
LINE
  5
A3
330
1F
100
AcDbEntity
  8
0
  6
Continuous
 62
     1
370
    25
100
AcDbLine
 10
-182.673443881
 20
202.0420548985
 30
0.0
 11
-182.673443881
 21
22.0420477459
 31
0.0
  0
ARC
  5
A4
330
1F
100
AcDbEntity
  8
0
  6
Continuous
 62
     7
370
    25
100
AcDbCircle
 10
253.6810329512
 20
462.6978364108
 30
0.0
 40
2.000000000000028
100
AcDbArc
 50
333.7586503478
 51
0.0
  0
ARC
  5
A5
330
1F
100
AcDbEntity
  8
0
  6
Continuous
 62
     7
370
    25
100
AcDbCircle
 10
7.6810329512
 20
462.6978364108
 30
0.0
 40
2.000000000000019
100
AcDbArc
 50
180.0
 51
206.2413496522
  0
LINE
  5
A6
330
1F
100
AcDbEntity
  8
0
  6
Continuous
 62
     7
370
    25
100
AcDbLine
 10
255.6810329512
 20
462.6978376046
 30
0.0
 11
255.6810329512
 21
591.2316591576
 31
0.0
  0
LINE
  5
A7
330
1F
100
AcDbEntity
  8
0
  6
Continuous
 62
     7
370
    25
100
AcDbLine
 10
5.6810329512
 20
591.2316591576
 30
0.0
 11
5.6810329512
 21
462.6978376046
 31
0.0
  0
LINE
  5
A8
330
1F
100
AcDbEntity
  8
0
  6
Continuous
 62
     7
370
    25
100
AcDbLine
 10
5.8871532634
 20
461.8135300562
 30
0.0
 11
40.4749090627
 21
391.6497939364
 31
0.0
  0
LINE
  5
A9
330
1F
100
AcDbEntity
  8
0
  6
Continuous
 62
     7
370
    25
100
AcDbLine
 10
220.8871568397
 20
391.6497939364
 30
0.0
 11
255.474912639
 21
461.8135300562
 31
0.0
  0
ARC
  5
AA
330
1F
100
AcDbEntity
  8
0
  6
Continuous
 62
     7
370
    25
100
AcDbCircle
 10
222.6810329512
 20
390.765485587
 30
0.0
 40
2.000000000000008
100
AcDbArc
 50
153.7586503478
 51
180.0
  0
ARC
  5
AB
330
1F
100
AcDbEntity
  8
0
  6
Continuous
 62
     7
370
    25
100
AcDbCircle
 10
38.6810329512
 20
390.765485587
 30
0.0
 40
2.000000000000008
100
AcDbArc
 50
0.0
 51
26.2413496522
  0
LINE
  5
AC
330
1F
100
AcDbEntity
  8
0
  6
Continuous
 62
     7
370
    25
100
AcDbLine
 10
220.6810365274
 20
286.2316669062
 30
0.0
 11
220.6810365274
 21
390.7654845253
 31
0.0
  0
LINE
  5
AD
330
1F
100
AcDbEntity
  8
0
  6
Continuous
 62
     7
370
    25
100
AcDbLine
 10
40.6810293749
 20
390.7654845253
 30
0.0
 11
40.6810293749
 21
286.2316669062
 31
0.0
  0
LINE
  5
AE
330
1F
100
AcDbEntity
  8
0
  6
Continuous
 62
     7
370
    25
100
AcDbLine
 10
255.6810329512
 20
591.2316591576
 30
0.0
 11
5.6810329512
 21
591.2316591576
 31
0.0
  0
LINE
  5
AF
330
1F
100
AcDbEntity
  8
0
  6
Continuous
 62
     7
370
    25
100
AcDbLine
 10
220.6810365274
 20
286.2316669062
 30
0.0
 11
40.6810293749
 21
286.2316669062
 31
0.0
  0
LINE
  5
B0
330
1F
100
AcDbEntity
  8
0
  6
Continuous
 62
     1
370
    25
100
AcDbLine
 10
255.474912639
 20
461.8135300562
 30
0.0
 11
5.8871532634
 21
461.8135300562
 31
0.0
  0
LINE
  5
B1
330
1F
100
AcDbEntity
  8
0
  6
Continuous
 62
     1
370
    25
100
AcDbLine
 10
255.6810329512
 20
462.6978376046
 30
0.0
 11
5.6810329512
 21
462.6978376046
 31
0.0
  0
LINE
  5
B2
330
1F
100
AcDbEntity
  8
0
  6
Continuous
 62
     1
370
    25
100
AcDbLine
 10
220.8871568397
 20
391.6497939364
 30
0.0
 11
40.4749090627
 21
391.6497939364
 31
0.0
  0
LINE
  5
B3
330
1F
100
AcDbEntity
  8
0
  6
Continuous
 62
     1
370
    25
100
AcDbLine
 10
220.6810365274
 20
390.7654845253
 30
0.0
 11
40.6810293749
 21
390.7654845253
 31
0.0
  0
ARC
  5
B4
330
1F
100
AcDbEntity
  8
0
  6
Continuous
 62
     7
370
    25
100
AcDbCircle
 10
576.383991512
 20
-10.9579486778
 30
0.0
 40
2.000000000000071
100
AcDbArc
 50
243.7586503478
 51
270.0
  0
ARC
  5
B5
330
1F
100
AcDbEntity
  8
0
  6
Continuous
 62
     7
370
    25
100
AcDbCircle
 10
576.383991512
 20
235.0420513222
 30
0.0
 40
2.000000000000083
100
AcDbArc
 50
90.0
 51
116.2413496522
  0
LINE
  5
B6
330
1F
100
AcDbEntity
  8
0
  6
Continuous
 62
     7
370
    25
100
AcDbLine
 10
576.3839927058
 20
-12.9579486778
 30
0.0
 11
704.9178142588
 21
-12.9579486778
 31
0.0
  0
LINE
  5
B7
330
1F
100
AcDbEntity
  8
0
  6
Continuous
 62
     7
370
    25
100
AcDbLine
 10
704.9178142588
 20
237.0420513222
 30
0.0
 11
576.3839927058
 21
237.0420513222
 31
0.0
  0
LINE
  5
B8
330
1F
100
AcDbEntity
  8
0
  6
Continuous
 62
     7
370
    25
100
AcDbLine
 10
575.4996851574
 20
236.83593101
 30
0.0
 11
505.3359490375
 21
202.2481752107
 31
0.0
  0
LINE
  5
B9
330
1F
100
AcDbEntity
  8
0
  6
Continuous
 62
     7
370
    25
100
AcDbLine
 10
505.3359490375
 20
21.8359274337
 30
0.0
 11
575.4996851574
 21
-12.7518283656
 31
0.0
  0
ARC
  5
BA
330
1F
100
AcDbEntity
  8
0
  6
Continuous
 62
     7
370
    25
100
AcDbCircle
 10
504.4516406881
 20
20.0420513222
 30
0.0
 40
2.0
100
AcDbArc
 50
63.7586503478
 51
90.0
  0
ARC
  5
BB
330
1F
100
AcDbEntity
  8
0
  6
Continuous
 62
     7
370
    25
100
AcDbCircle
 10
504.4516406881
 20
204.0420513222
 30
0.0
 40
2.0
100
AcDbArc
 50
270.0
 51
296.2413496522
  0
LINE
  5
BC
330
1F
100
AcDbEntity
  8
0
  6
Continuous
 62
     7
370
    25
100
AcDbLine
 10
399.9178220074
 20
22.0420477459
 30
0.0
 11
504.4516396265
 21
22.0420477459
 31
0.0
  0
LINE
  5
BD
330
1F
100
AcDbEntity
  8
0
  6
Continuous
 62
     7
370
    25
100
AcDbLine
 10
504.4516396265
 20
202.0420548985
 30
0.0
 11
399.9178220074
 21
202.0420548985
 31
0.0
  0
LINE
  5
BE
330
1F
100
AcDbEntity
  8
0
  6
Continuous
 62
     7
370
    25
100
AcDbLine
 10
704.9178142588
 20
112.0420513222
 30
0.0
 11
704.9178142588
 21
237.0420513222
 31
0.0
  0
LINE
  5
BF
330
1F
100
AcDbEntity
  8
0
  6
Continuous
 62
     7
370
    25
100
AcDbLine
 10
704.9178142588
 20
-12.9579486778
 30
0.0
 11
704.9178142588
 21
112.0420513222
 31
0.0
  0
LINE
  5
C0
330
1F
100
AcDbEntity
  8
0
  6
Continuous
 62
     7
370
    25
100
AcDbLine
 10
399.9178220074
 20
112.0420513222
 30
0.0
 11
399.9178220074
 21
202.0420548985
 31
0.0
  0
LINE
  5
C1
330
1F
100
AcDbEntity
  8
0
  6
Continuous
 62
     7
370
    25
100
AcDbLine
 10
399.9178220074
 20
22.0420477459
 30
0.0
 11
399.9178220074
 21
112.0420513222
 31
0.0
  0
LINE
  5
C2
330
1F
100
AcDbEntity
  8
0
  6
Continuous
 62
     1
370
    25
100
AcDbLine
 10
575.4996851574
 20
112.0420513222
 30
0.0
 11
575.4996851574
 21
236.83593101
 31
0.0
  0
LINE
  5
C3
330
1F
100
AcDbEntity
  8
0
  6
Continuous
 62
     1
370
    25
100
AcDbLine
 10
575.4996851574
 20
-12.7518283656
 30
0.0
 11
575.4996851574
 21
112.0420513222
 31
0.0
  0
LINE
  5
C4
330
1F
100
AcDbEntity
  8
0
  6
Continuous
 62
     1
370
    25
100
AcDbLine
 10
576.3839927058
 20
112.0420513222
 30
0.0
 11
576.3839927058
 21
237.0420513222
 31
0.0
  0
LINE
  5
C5
330
1F
100
AcDbEntity
  8
0
  6
Continuous
 62
     1
370
    25
100
AcDbLine
 10
576.3839927058
 20
-12.9579486778
 30
0.0
 11
576.3839927058
 21
112.0420513222
 31
0.0
  0
LINE
  5
C6
330
1F
100
AcDbEntity
  8
0
  6
Continuous
 62
     1
370
    25
100
AcDbLine
 10
505.3359490375
 20
112.0420513222
 30
0.0
 11
505.3359490375
 21
202.2481752107
 31
0.0
  0
LINE
  5
C7
330
1F
100
AcDbEntity
  8
0
  6
Continuous
 62
     1
370
    25
100
AcDbLine
 10
505.3359490375
 20
21.8359274337
 30
0.0
 11
505.3359490375
 21
112.0420513222
 31
0.0
  0
LINE
  5
C8
330
1F
100
AcDbEntity
  8
0
  6
Continuous
 62
     1
370
    25
100
AcDbLine
 10
504.4516396265
 20
112.0420513222
 30
0.0
 11
504.4516396265
 21
202.0420548985
 31
0.0
  0
LINE
  5
C9
330
1F
100
AcDbEntity
  8
0
  6
Continuous
 62
     1
370
    25
100
AcDbLine
 10
504.4516396265
 20
22.0420477459
 30
0.0
 11
504.4516396265
 21
112.0420513222
 31
0.0
  0
ARC
  5
CA
330
1F
100
AcDbEntity
  8
0
  6
Continuous
 62
     7
370
    25
100
AcDbCircle
 10
7.6810329512
 20
-314.5989380339
 30
0.0
 40
2.000000000000019
100
AcDbArc
 50
153.7586503478
 51
180.0
  0
ARC
  5
CB
330
1F
100
AcDbEntity
  8
0
  6
Continuous
 62
     7
370
    25
100
AcDbCircle
 10
253.6810329512
 20
-314.5989380339
 30
0.0
 40
2.000000000000028
100
AcDbArc
 50
0.0
 51
26.2413496522
  0
LINE
  5
CC
330
1F
100
AcDbEntity
  8
0
  6
Continuous
 62
     7
370
    25
100
AcDbLine
 10
5.6810329512
 20
-314.5989392277
 30
0.0
 11
5.6810329512
 21
-443.1327607807
 31
0.0
  0
LINE
  5
CD
330
1F
100
AcDbEntity
  8
0
  6
Continuous
 62
     7
370
    25
100
AcDbLine
 10
255.6810329512
 20
-443.1327607807
 30
0.0
 11
255.6810329512
 21
-314.5989392277
 31
0.0
  0
LINE
  5
CE
330
1F
100
AcDbEntity
  8
0
  6
Continuous
 62
     7
370
    25
100
AcDbLine
 10
255.474912639
 20
-313.7146316793
 30
0.0
 11
220.8871568397
 21
-243.5508955594
 31
0.0
  0
LINE
  5
CF
330
1F
100
AcDbEntity
  8
0
  6
Continuous
 62
     7
370
    25
100
AcDbLine
 10
40.4749090627
 20
-243.5508955594
 30
0.0
 11
5.8871532634
 21
-313.7146316793
 31
0.0
  0
ARC
  5
D0
330
1F
100
AcDbEntity
  8
0
  6
Continuous
 62
     7
370
    25
100
AcDbCircle
 10
38.6810329512
 20
-242.66658721
 30
0.0
 40
2.000000000000008
100
AcDbArc
 50
333.7586503478
 51
0.0
  0
ARC
  5
D1
330
1F
100
AcDbEntity
  8
0
  6
Continuous
 62
     7
370
    25
100
AcDbCircle
 10
222.6810329512
 20
-242.66658721
 30
0.0
 40
2.000000000000008
100
AcDbArc
 50
180.0
 51
206.2413496522
  0
LINE
  5
D2
330
1F
100
AcDbEntity
  8
0
  6
Continuous
 62
     7
370
    25
100
AcDbLine
 10
40.6810293749
 20
-138.1327685293
 30
0.0
 11
40.6810293749
 21
-242.6665861484
 31
0.0
  0
LINE
  5
D3
330
1F
100
AcDbEntity
  8
0
  6
Continuous
 62
     7
370
    25
100
AcDbLine
 10
220.6810365274
 20
-242.6665861484
 30
0.0
 11
220.6810365274
 21
-138.1327685293
 31
0.0
  0
LINE
  5
D4
330
1F
100
AcDbEntity
  8
0
  6
Continuous
 62
     7
370
    25
100
AcDbLine
 10
5.6810329512
 20
-443.1327607807
 30
0.0
 11
255.6810329512
 21
-443.1327607807
 31
0.0
  0
LINE
  5
D5
330
1F
100
AcDbEntity
  8
0
  6
Continuous
 62
     7
370
    25
100
AcDbLine
 10
40.6810293749
 20
-138.1327685293
 30
0.0
 11
220.6810365274
 21
-138.1327685293
 31
0.0
  0
LINE
  5
D6
330
1F
100
AcDbEntity
  8
0
  6
Continuous
 62
     1
370
    25
100
AcDbLine
 10
5.8871532634
 20
-313.7146316793
 30
0.0
 11
255.474912639
 21
-313.7146316793
 31
0.0
  0
LINE
  5
D7
330
1F
100
AcDbEntity
  8
0
  6
Continuous
 62
     1
370
    25
100
AcDbLine
 10
5.6810329512
 20
-314.5989392277
 30
0.0
 11
255.6810329512
 21
-314.5989392277
 31
0.0
  0
LINE
  5
D8
330
1F
100
AcDbEntity
  8
0
  6
Continuous
 62
     1
370
    25
100
AcDbLine
 10
40.4749090627
 20
-243.5508955594
 30
0.0
 11
220.8871568397
 21
-243.5508955594
 31
0.0
  0
LINE
  5
D9
330
1F
100
AcDbEntity
  8
0
  6
Continuous
 62
     1
370
    25
100
AcDbLine
 10
40.6810293749
 20
-242.6665861484
 30
0.0
 11
220.6810365274
 21
-242.6665861484
 31
0.0
  0
LINE
  5
DA
330
1F
100
AcDbEntity
  8
0
  6
Continuous
 62
     7
370
    25
100
AcDbLine
 10
593.2653443547
 20
-136.8906471465
 30
0.0
 11
502.3782075228
 21
-84.4226198668
 31
0.0
  0
LINE
  5
DB
330
1F
100
AcDbEntity
  8
0
  6
Continuous
 62
     7
370
    25
100
AcDbLine
 10
377.3883670526
 20
-300.9348321151
 30
0.0
 11
468.2755038845
 21
-353.4028593948
 31
0.0
  0
SPLINE
  5
DC
330
1F
100
AcDbEntity
  8
0
  6
Continuous
 62
     7
370
    25
100
AcDbSpline
210
0.0
220
0.0
230
1.0
 70
     8
 71
     3
 72
    11
 73
     7
 74
     0
 42
0.000000001
 43
0.00000001
 40
0.0
 40
0.0
 40
0.0
 40
0.0
 40
0.3136437849445504
 40
0.6544763422470766
 40
0.9946046723377647
 40
1.0
 40
1.0
 40
1.0
 40
1.0
 10
606.9251985432209
 20
-149.2034132168201
 30
0.0
 10
606.2337819080963
 20
-148.3012756916758
 30
0.0
 10
604.7910119504352
 20
-146.4187972368112
 30
0.0
 10
602.3618229720182
 20
-143.860429903863
 30
0.0
 10
600.6312019991924
 20
-142.1644566942254
 30
0.0
 10
599.6844235249127
 20
-141.422557897982
 30
0.0
 10
599.6696396454948
 20
-141.4109732003553
 30
0.0
  0
SPLINE
  5
DD
330
1F
100
AcDbEntity
  8
0
  6
Continuous
 62
     7
370
    25
100
AcDbSpline
210
0.0
220
0.0
230
1.0
 70
     8
 71
     3
 72
    10
 73
     6
 74
     0
 42
0.000000001
 43
0.00000001
 40
0.0
 40
0.0
 40
0.0
 40
0.0
 40
0.3350467150223134
 40
0.7295991700034927
 40
1.0
 40
1.0
 40
1.0
 40
1.0
 10
475.5787835514733
 20
-356.7374593683504
 30
0.0
 10
476.5350111429876
 20
-357.0593341208096
 30
0.0
 10
478.6172964656681
 20
-357.7602499683911
 30
0.0
 10
481.5874060174237
 20
-358.4694713673305
 30
0.0
 10
483.6314780743006
 20
-358.7655759106927
 30
0.0
 10
484.4626925268629
 20
-358.8859857441348
 30
0.0
  0
LINE
  5
DE
330
1F
100
AcDbEntity
  8
0
  6
Continuous
 62
     7
370
    25
100
AcDbLine
 10
494.6711175832
 20
-359.3637231513
 30
0.0
 11
554.4629299327
 21
-356.4486218711
 31
0.0
  0
LINE
  5
DF
330
1F
100
AcDbEntity
  8
0
  6
Continuous
 62
     7
370
    25
100
AcDbLine
 10
639.0036206577
 20
-210.0039752349
 30
0.0
 11
611.6272708676
 21
-156.7677679148
 31
0.0
  0
LINE
  5
E0
330
1F
100
AcDbEntity
  8
0
  6
Continuous
 62
     7
370
    25
100
AcDbLine
 10
700.5471943257
 20
-239.2365615249
 30
0.0
 11
634.3991670199
 21
-201.0501181826
 31
0.0
  0
LINE
  5
E1
330
1F
100
AcDbEntity
  8
0
  6
Continuous
 62
     7
370
    25
100
AcDbLine
 10
544.4064785096
 20
-356.9389148946
 30
0.0
 11
610.5545058153
 21
-395.1253582369
 31
0.0
  0
ARC
  5
E2
330
1F
100
AcDbEntity
  8
0
  6
Continuous
 62
     7
370
    25
100
AcDbCircle
 10
572.2142311212
 20
-173.3239840231
 30
0.0
 40
42.0777542691598
100
AcDbArc
 50
49.6187155953
 51
59.9807591373
  0
ARC
  5
E3
330
1F
100
AcDbEntity
  8
0
  6
Continuous
 62
     7
370
    25
100
AcDbCircle
 10
489.3049469279
 20
-316.9414583623
 30
0.0
 40
42.09122521341097
100
AcDbArc
 50
240.0254122511
 51
250.6356796964
  0
LWPOLYLINE
  5
E4
330
1F
100
AcDbEntity
  8
0
  6
Continuous
 62
     7
370
    25
100
AcDbPolyline
 90
      125
 70
   128
 43
0.0
 10
351.4949396394
 20
-243.7042329798
 10
351.6083831505
 20
-238.4691041528
 10
351.9484291926
 20
-233.116431307
 10
352.5142032187
 20
-227.6599547841
 10
353.3042564307
 20
-222.1136795131
 10
354.316549975
 20
-216.4918502934
 10
355.5484970886
 20
-210.8088867797
 10
356.9969262212
 20
-205.0793910828
 10
358.6581231819
 20
-199.3180580391
 10
360.5278258704
 20
-193.5396828148
 10
362.6012348146
 20
-187.7590970277
 10
364.8730237063
 20
-181.9911444136
 10
367.3373604755
 20
-176.2506230332
 10
369.9879283631
 20
-170.5522700646
 10
372.8179101165
 20
-164.910716174
 10
375.8200512094
 20
-159.3404429362
 10
378.9866387684
 20
-153.8557524135
 10
382.3095489885
 20
-148.4707154488
 10
385.7802524014
 20
-143.199162541
 10
389.3898349484
 20
-138.0546169256
 10
393.1290348596
 20
-133.0502976204
 10
396.988247922
 20
-128.1990433799
 10
400.9575748945
 20
-123.5133035734
 10
405.0268241423
 20
-119.0051123305
 10
409.1855511494
 20
-114.6860413953
 10
413.4230743241
 20
-110.5671788355
 10
417.7285250476
 20
-106.6590879816
 10
422.0908437236
 20
-102.9718157923
 10
426.4988364125
 20
-99.5148114893
 10
430.9411866854
 20
-96.2969623011
 10
435.4064908564
 20
-93.326524454
 10
439.8832872877
 20
-90.6111245052
 10
444.3600837189
 20
-88.1577253154
 10
448.82538789
 20
-85.9726327053
 10
453.2677381629
 20
-84.0614534427
 10
457.6757308518
 20
-82.4290977172
 10
462.0380495278
 20
-81.0797439709
 10
466.3435002513
 20
-80.0168672293
 10
470.5810234259
 20
-79.2431896724
 10
474.7397504331
 20
-78.7606966092
 10
478.8089996809
 20
-78.5706326759
 10
482.7783266534
 20
-78.6734851094
 10
486.6375397157
 20
-79.0689867915
 10
490.376739627
 20
-79.756117773
 10
493.986322174
 20
-80.7331280881
 10
497.4570255868
 20
-81.997492131
 10
500.779935807
 20
-83.5459786187
 10
503.946523366
 20
-85.3746049673
 10
506.9486644589
 20
-87.4786798794
 10
509.7786462123
 20
-89.8528063866
 10
512.4292140999
 20
-92.4908788121
 10
514.8935508691
 20
-95.3861375219
 10
517.1653397608
 20
-98.5311385127
 10
519.2387487049
 20
-101.9178172887
 10
521.1084513935
 20
-105.5374797383
 10
522.7696483541
 20
-109.3808355965
 10
524.2180774868
 20
-113.4380106132
 10
525.4500246004
 20
-117.6985982656
 10
526.4623181446
 20
-122.1516582371
 10
527.2523713567
 20
-126.7857574857
 10
527.8181453827
 20
-131.5890052225
 10
528.1581914249
 20
-136.549069265
 10
528.271634936
 20
-141.653219002
 10
528.1581914249
 20
-146.888347829
 10
527.8181453827
 20
-152.2410206748
 10
527.2523713567
 20
-157.6974971977
 10
526.4623181446
 20
-163.2437724688
 10
525.4500246004
 20
-168.8656016885
 10
524.2180774868
 20
-174.5485652022
 10
522.7696483541
 20
-180.2780608991
 10
521.1084513935
 20
-186.0393939427
 10
519.2387487049
 20
-191.817769167
 10
517.1653397608
 20
-197.5983549542
 10
514.8935508691
 20
-203.3663075683
 10
512.4292140999
 20
-209.1068289487
 10
509.7786462123
 20
-214.8051819173
 10
506.9486644589
 20
-220.4467358078
 10
503.946523366
 20
-226.0170090456
 10
500.779935807
 20
-231.5016995684
 10
497.4570255868
 20
-236.8867365331
 10
493.986322174
 20
-242.1582894409
 10
490.376739627
 20
-247.3028350563
 10
486.6375397157
 20
-252.3071543614
 10
482.7783266534
 20
-257.158408602
 10
478.8089996809
 20
-261.8441484085
 10
474.7397504331
 20
-266.3523396514
 10
470.5810234259
 20
-270.6714105866
 10
466.3435002513
 20
-274.7902731464
 10
462.0380495278
 20
-278.6983640002
 10
457.6757308518
 20
-282.3856361896
 10
453.2677381629
 20
-285.8426404926
 10
448.82538789
 20
-289.0604896807
 10
444.3600837189
 20
-292.0309275279
 10
439.8832872877
 20
-294.7463274766
 10
435.4064908564
 20
-297.1997266664
 10
430.9411866854
 20
-299.3848192766
 10
426.4988364125
 20
-301.2959985391
 10
422.0908437236
 20
-302.9283542647
 10
417.7285250476
 20
-304.277708011
 10
413.4230743241
 20
-305.3405847525
 10
409.1855511494
 20
-306.1142623095
 10
405.0268241423
 20
-306.5967553726
 10
400.9575748945
 20
-306.786819306
 10
396.988247922
 20
-306.6839668724
 10
393.1290348596
 20
-306.2884651903
 10
389.3898349484
 20
-305.6013342088
 10
385.7802524014
 20
-304.6243238937
 10
382.3095489885
 20
-303.3599598509
 10
378.9866387684
 20
-301.8114733632
 10
375.8200512094
 20
-299.9828470145
 10
372.8179101165
 20
-297.8787721024
 10
369.9879283631
 20
-295.5046455953
 10
367.3373604755
 20
-292.8665731698
 10
364.8730237063
 20
-289.9713144599
 10
362.6012348146
 20
-286.8263134691
 10
360.5278258704
 20
-283.4396346931
 10
358.6581231819
 20
-279.8199722436
 10
356.9969262212
 20
-275.9766163854
 10
355.5484970886
 20
-271.9194413687
 10
354.316549975
 20
-267.6588537162
 10
353.3042564307
 20
-263.2057937448
 10
352.5142032187
 20
-258.5716944961
 10
351.9484291926
 20
-253.7684467594
 10
351.6083831505
 20
-248.8083827169
 10
351.4949396394
 20
-243.7042329798
  0
LWPOLYLINE
  5
E5
330
1F
100
AcDbEntity
  8
0
  6
Continuous
 62
     7
370
    25
100
AcDbPolyline
 90
      117
 70
   128
 43
0.0
 10
361.9601180285
 20
-237.662814091
 10
362.0743992082
 20
-232.7252704417
 10
362.416910841
 20
-227.6702612539
 10
362.9866414024
 20
-222.5126188814
 10
363.7819208237
 20
-217.2674676336
 10
364.8004204914
 20
-211.9501937377
 10
366.0391532476
 20
-206.5763924864
 10
367.4944786583
 20
-201.1618294547
 10
369.1621346235
 20
-195.7223827078
 10
371.0372321087
 20
-190.2740062986
 10
373.1142604134
 20
-184.8326876816
 10
375.3871398549
 20
-179.4143777561
 10
377.8491954258
 20
-174.0349756539
 10
380.4932042102
 20
-168.7102618231
 10
383.3114217245
 20
-163.4558463192
 10
386.295566113
 20
-158.2871566363
 10
389.4368971731
 20
-153.2193312495
 10
392.7261952816
 20
-148.2672561152
 10
396.1538140785
 20
-143.4454430022
 10
399.7096989063
 20
-138.7680370976
 10
403.3834184201
 20
-134.2487683406
 10
407.1641988316
 20
-129.9008769001
 10
411.0409502513
 20
-125.7371283867
 10
415.0023009327
 20
-121.7697332462
 10
419.0366315165
 20
-118.0103209079
 10
423.1321092749
 20
-114.469926099
 10
427.2767223562
 20
-111.1589325737
 10
431.4583107359
 20
-108.0870491612
 10
435.6646119862
 20
-105.2632833445
 10
439.8832872877
 20
-102.6959262434
 10
444.1019625892
 20
-100.3925045188
 10
448.3082638395
 20
-98.3597782853
 10
452.4898522192
 20
-96.6037025205
 10
456.6344653005
 20
-95.1294276396
 10
460.7299430589
 20
-93.9412844783
 10
464.7642736427
 20
-93.0427578716
 10
468.7256243241
 20
-92.4364748688
 10
472.6023757438
 20
-92.1242214674
 10
476.3831561553
 20
-92.1069167606
 10
480.056875669
 20
-92.3845992517
 10
483.6127604969
 20
-92.9564679229
 10
487.0403792938
 20
-93.8208366096
 10
490.3296774023
 20
-94.975168985
 10
493.4710084623
 20
-96.4160907307
 10
496.4551528509
 20
-98.1393606404
 10
499.2733703652
 20
-100.1399314623
 10
501.9173791495
 20
-102.4119377294
 10
504.3794347205
 20
-104.9487109765
 10
506.6523141619
 20
-107.7428101568
 10
508.7293424667
 20
-110.7860429378
 10
510.6044399519
 20
-114.0694778727
 10
512.272095917
 20
-117.5834900262
 10
513.7274213278
 20
-121.3177701045
 10
514.966154084
 20
-125.2613609584
 10
515.9846537517
 20
-129.4027001685
 10
516.7799331729
 20
-133.7296413411
 10
517.3496637344
 20
-138.229486809
 10
517.6921753672
 20
-142.889040483
 10
517.8064565469
 20
-147.6946378908
 10
517.6921753672
 20
-152.6321815402
 10
517.3496637344
 20
-157.6871907279
 10
516.7799331729
 20
-162.8448331004
 10
515.9846537517
 20
-168.0899843482
 10
514.966154084
 20
-173.4072582441
 10
513.7274213278
 20
-178.7810594955
 10
512.272095917
 20
-184.1956225272
 10
510.6044399519
 20
-189.635069274
 10
508.7293424667
 20
-195.0834456833
 10
506.6523141619
 20
-200.5247643002
 10
504.3794347205
 20
-205.9430742257
 10
501.9173791495
 20
-211.322476328
 10
499.2733703652
 20
-216.6471901588
 10
496.4551528509
 20
-221.9016056627
 10
493.4710084623
 20
-227.0702953456
 10
490.3296774023
 20
-232.1381207324
 10
487.0403792938
 20
-237.0901958667
 10
483.6127604969
 20
-241.9120089797
 10
480.056875669
 20
-246.5894148843
 10
476.3831561553
 20
-251.1086836413
 10
472.6023757438
 20
-255.4565750817
 10
468.7256243241
 20
-259.6203235952
 10
464.7642736427
 20
-263.5877187356
 10
460.7299430589
 20
-267.3471310739
 10
456.6344653005
 20
-270.8875258828
 10
452.4898522192
 20
-274.1985194082
 10
448.3082638395
 20
-277.2704028207
 10
444.1019625892
 20
-280.0941686373
 10
439.8832872877
 20
-282.6615257385
 10
435.6646119862
 20
-284.964947463
 10
431.4583107359
 20
-286.9976736966
 10
427.2767223562
 20
-288.7537494614
 10
423.1321092749
 20
-290.2280243423
 10
419.0366315165
 20
-291.4161675035
 10
415.0023009327
 20
-292.3146941103
 10
411.0409502513
 20
-292.9209771131
 10
407.1641988316
 20
-293.2332305144
 10
403.3834184201
 20
-293.2505352213
 10
399.7096989063
 20
-292.9728527302
 10
396.1538140785
 20
-292.400984059
 10
392.7261952816
 20
-291.5366153723
 10
389.4368971731
 20
-290.3822829968
 10
386.295566113
 20
-288.9413612512
 10
383.3114217245
 20
-287.2180913415
 10
380.4932042102
 20
-285.2175205196
 10
377.8491954258
 20
-282.9455142524
 10
375.3871398549
 20
-280.4087410054
 10
373.1142604134
 20
-277.614641825
 10
371.0372321087
 20
-274.5714090441
 10
369.1621346235
 20
-271.2879741091
 10
367.4944786583
 20
-267.7739619557
 10
366.0391532476
 20
-264.0396818773
 10
364.8004204914
 20
-260.0960910235
 10
363.7819208237
 20
-255.9547518134
 10
362.9866414024
 20
-251.6278106407
 10
362.416910841
 20
-247.1279651729
 10
362.0743992082
 20
-242.4684114989
 10
361.9601180285
 20
-237.662814091
  0
ARC
  5
E6
330
1F
100
AcDbEntity
  8
0
  6
Continuous
 62
     7
370
    25
100
AcDbCircle
 10
555.6832331889
 20
-185.9071427642
 30
0.0
 40
63.02881268453304
100
AcDbArc
 50
12.5585150072
 51
35.4299183663
  0
ARC
  5
E7
330
1F
100
AcDbEntity
  8
0
  6
Continuous
 62
     7
370
    25
100
AcDbCircle
 10
492.2023925168
 20
-299.0639738309
 30
0.0
 40
60.33164919944113
100
AcDbArc
 50
262.8482764166
 51
286.7906053732
  0
ARC
  5
E8
330
1F
100
AcDbEntity
  8
0
  6
Continuous
 62
     7
370
    25
100
AcDbCircle
 10
596.9218626947
 20
-231.4300204706
 30
0.0
 40
47.22234394540083
100
AcDbArc
 50
15.4282977139
 51
26.9830472179
  0
ARC
  5
E9
330
1F
100
AcDbEntity
  8
0
  6
Continuous
 62
     7
370
    25
100
AcDbCircle
 10
551.9098780495
 20
-308.8757174266
 30
0.0
 40
47.64136134917033
100
AcDbArc
 50
273.0718937874
 51
284.5977417262
  0
LWPOLYLINE
  5
EA
330
1F
100
AcDbEntity
  8
0
  6
Continuous
 62
     7
370
    25
100
AcDbPolyline
 90
       54
 70
   128
 43
0.0
 10
700.5471943257
 20
-239.2365615249
 10
702.2019849653
 20
-240.264841335
 10
704.7071620307
 20
-242.1298105009
 10
707.0363760035
 20
-244.2634407789
 10
709.1812818078
 20
-246.6580993802
 10
711.1342087171
 20
-249.3052075637
 10
712.8881603546
 20
-252.195295389
 10
714.4368568398
 20
-255.3180169297
 10
715.7747558622
 20
-258.6621898193
 10
716.8970684862
 20
-262.2158469644
 10
717.7997802243
 20
-265.9662624024
 10
718.479656306
 20
-269.9000151805
 10
718.9342680191
 20
-274.0030174959
 10
719.1619769049
 20
-278.2605901697
 10
719.1619769049
 20
-282.6574858453
 10
718.9342680191
 20
-287.1779656025
 10
718.479656306
 20
-291.8058514294
 10
717.7997802243
 20
-296.5245724229
 10
716.8970684862
 20
-301.3172366488
 10
715.7747558622
 20
-306.1666883678
 10
714.4368568398
 20
-311.0555665887
 10
712.8881603546
 20
-315.9663750307
 10
711.1342087171
 20
-320.8815323118
 10
709.1812818078
 20
-325.78344191
 10
707.0363760035
 20
-330.6545560401
 10
704.7071620307
 20
-335.4774395287
 10
702.2019849653
 20
-340.2348245675
 10
699.5298089153
 20
-344.9096852335
 10
696.7001959468
 20
-349.4852831148
 10
693.723282377
 20
-353.9452387918
 10
690.6097181875
 20
-358.273585064
 10
687.3706564883
 20
-362.4548369117
 10
684.0176850284
 20
-366.4740127823
 10
680.5628103914
 20
-370.3167410537
 10
677.018398726
 20
-373.9692516639
 10
673.3971401848
 20
-377.4184757278
 10
669.711996241
 20
-380.652063784
 10
665.9761581994
 20
-383.6584401632
 10
662.2030004406
 20
-386.4268482323
 10
658.406030371
 20
-388.9473732027
 10
654.5988391966
 20
-391.2109948834
 10
650.7950559901
 20
-393.209608114
 10
647.0082976408
 20
-394.9360516573
 10
643.2521191351
 20
-396.3841612374
 10
639.5399669638
 20
-397.5487355991
 10
635.8851292382
 20
-398.4256200597
 10
632.3006886034
 20
-399.0116667698
 10
628.7994787748
 20
-399.3047841399
 10
625.3940318544
 20
-399.3039185839
 10
622.0965388181
 20
-399.0090712456
 10
618.9188034176
 20
-398.4213002761
 10
615.8722026679
 20
-397.5427132251
 10
612.9676394319
 20
-396.3764518274
 10
610.5545058153
 20
-395.1253582369
  0
LWPOLYLINE
  5
EB
330
1F
100
AcDbEntity
  8
0
  6
Continuous
 62
     1
370
    25
100
AcDbPolyline
 90
       60
 70
   128
 43
0.0
 10
599.4751925257
 20
-141.271255783
 10
600.6657830442
 20
-142.3208336663
 10
603.3163509319
 20
-144.9589060918
 10
605.780687701
 20
-147.8541648017
 10
608.0524765927
 20
-150.9991657925
 10
610.1258855369
 20
-154.3858445684
 10
611.9955882254
 20
-158.005507018
 10
613.6567851861
 20
-161.8488628762
 10
615.1052143187
 20
-165.9060378929
 10
616.3371614323
 20
-170.1666255453
 10
617.3494549766
 20
-174.6196855168
 10
618.1395081886
 20
-179.2537847654
 10
618.7052822147
 20
-184.0570325022
 10
619.0453282568
 20
-189.0170965447
 10
619.158771768
 20
-194.1212462817
 10
619.0453282568
 20
-199.3563751088
 10
618.7052822147
 20
-204.7090479546
 10
618.1395081886
 20
-210.1655244774
 10
617.3494549766
 20
-215.7117997485
 10
616.3371614323
 20
-221.3336289682
 10
615.1052143187
 20
-227.0165924819
 10
613.6567851861
 20
-232.7460881788
 10
611.9955882254
 20
-238.5074212224
 10
610.1258855369
 20
-244.2857964468
 10
608.0524765927
 20
-250.0663822339
 10
605.780687701
 20
-255.834334848
 10
603.3163509319
 20
-261.5748562284
 10
600.6657830442
 20
-267.273209197
 10
597.8358012908
 20
-272.9147630875
 10
594.833660198
 20
-278.4850363253
 10
591.6670726389
 20
-283.9697268481
 10
588.3441624188
 20
-289.3547638128
 10
584.873459006
 20
-294.6263167206
 10
581.2638764589
 20
-299.770862336
 10
577.5246765477
 20
-304.7751816411
 10
573.6654634853
 20
-309.6264358817
 10
569.6961365128
 20
-314.3121756882
 10
565.626887265
 20
-318.8203669311
 10
561.4681602579
 20
-323.1394378663
 10
557.2306370833
 20
-327.2583004261
 10
552.9251863597
 20
-331.1663912799
 10
548.5628676837
 20
-334.8536634693
 10
544.1548749949
 20
-338.3106677723
 10
539.7125247219
 20
-341.5285169604
 10
535.2472205509
 20
-344.4989548076
 10
530.7704241196
 20
-347.2143547564
 10
526.2936276884
 20
-349.6677539461
 10
521.8283235173
 20
-351.8528465563
 10
517.3859732444
 20
-353.7640258189
 10
512.9779805555
 20
-355.3963815444
 10
508.6156618795
 20
-356.7457352907
 10
504.310211156
 20
-357.8086120322
 10
500.0726879814
 20
-358.5822895892
 10
495.9139609742
 20
-359.0647826523
 10
491.8447117265
 20
-359.2548465857
 10
487.875384754
 20
-359.1519941522
 10
484.0161716916
 20
-358.7564924701
 10
480.2769717803
 20
-358.0693614885
 10
476.6673892333
 20
-357.0923511734
 10
475.3486038067
 20
-356.6515543915
  0
LWPOLYLINE
  5
EC
330
1F
100
AcDbEntity
  8
0
  6
Continuous
 62
     1
370
    25
100
AcDbPolyline
 90
       24
 70
   128
 43
0.0
 10
453.5602504625
 20
-273.3690955101
 10
454.1746039998
 20
-269.4500528936
 10
455.1931036675
 20
-264.1327789977
 10
456.4318364237
 20
-258.7589777464
 10
457.8871618344
 20
-253.3444147147
 10
459.5548177996
 20
-247.9049679678
 10
461.4299152848
 20
-242.4565915586
 10
463.5069435895
 20
-237.0152729416
 10
465.779823031
 20
-231.5969630162
 10
468.2418786019
 20
-226.2175609139
 10
470.8858873863
 20
-220.8928470831
 10
473.7041049006
 20
-215.6384315792
 10
476.6882492891
 20
-210.4697418963
 10
479.8295803492
 20
-205.4019165095
 10
483.1188784577
 20
-200.4498413752
 10
486.5464972546
 20
-195.6280282622
 10
490.1023820824
 20
-190.9506223576
 10
493.7761015962
 20
-186.4313536006
 10
497.5568820077
 20
-182.0834621602
 10
501.4336334274
 20
-177.9197136467
 10
505.3949841088
 20
-173.9523185062
 10
509.4293146926
 20
-170.1929061679
 10
513.524792451
 20
-166.6525113591
 10
516.5990033377
 20
-164.1709417232
  0
LWPOLYLINE
  5
ED
330
1F
100
AcDbEntity
  8
0
  6
Continuous
 62
     1
370
    25
100
AcDbPolyline
 90
       42
 70
   128
 43
0.0
 10
617.2040470321
 20
-172.2023737953
 10
617.8319929281
 20
-175.0969582854
 10
618.6207395878
 20
-179.7234178012
 10
619.1855758465
 20
-184.5187475104
 10
619.5250634429
 20
-189.4706319616
 10
619.6383225616
 20
-194.5663633571
 10
619.5250634429
 20
-199.7928609476
 10
619.1855758465
 20
-205.1367094344
 10
618.6207395878
 20
-210.5841852065
 10
617.8319929281
 20
-216.1213122316
 10
616.8213641844
 20
-221.7338761277
 10
615.5914506562
 20
-227.4074648457
 10
614.1454080888
 20
-233.1275158174
 10
612.4869506734
 20
-238.8793463738
 10
610.6203299731
 20
-244.6481948082
 10
608.550340192
 20
-250.4192477534
 10
606.2822971015
 20
-256.1776949328
 10
603.8220222349
 20
-261.9087474104
 10
601.1758270827
 20
-267.597701468
 10
598.3505130928
 20
-273.2299538144
 10
595.3533242547
 20
-278.7910350415
 10
592.1919523681
 20
-284.2666917545
 10
588.8745265066
 20
-289.6428439854
 10
585.4095445285
 20
-294.9057038183
 10
581.8059152238
 20
-300.0417632265
 10
578.0728845575
 20
-305.0378305672
 10
574.2200304009
 20
-309.8810883767
 10
570.2572493608
 20
-314.5591009735
 10
566.1947093645
 20
-319.0598600816
 10
562.042841757
 20
-323.3718076441
 10
557.8123044225
 20
-327.4838814467
 10
553.5139554429
 20
-331.3855242416
 10
549.158828073
 20
-335.0667225282
 10
544.7581043984
 20
-338.5180217602
 10
540.3230797745
 20
-341.7305590419
 10
535.8651381311
 20
-344.6961017199
 10
531.3957239838
 20
-347.4070270372
 10
526.9263098364
 20
-349.8563774548
 10
522.468368193
 20
-352.0378646408
 10
518.0333435692
 20
-353.9458977953
 10
513.6326198946
 20
-355.5755659666
 10
509.6306870664
 20
-356.8234963724
  0
LWPOLYLINE
  5
EE
330
1F
100
AcDbEntity
  8
0
  6
Continuous
 62
     1
370
    25
100
AcDbPolyline
 90
       38
 70
   128
 43
0.0
 10
642.4425084682
 20
-218.8673545092
 10
642.495697791
 20
-219.0578539334
 10
643.4004747247
 20
-222.8168612749
 10
644.0819102398
 20
-226.7596211219
 10
644.5375545507
 20
-230.8720251369
 10
644.7657902721
 20
-235.1393454734
 10
644.7657902721
 20
-239.5463111987
 10
644.5375545507
 20
-244.0771468901
 10
644.0819102398
 20
-248.7156266286
 10
643.4004747247
 20
-253.4451551744
 10
642.495697791
 20
-258.2487957279
 10
641.370808941
 20
-263.109356047
 10
640.0298437353
 20
-268.0094340777
 10
638.4776016465
 20
-272.9314879123
 10
636.7196355217
 20
-277.8578996675
 10
634.762235778
 20
-282.7710363201
 10
632.6124198659
 20
-287.6533044592
 10
630.2778690484
 20
-292.4872354519
 10
627.7669547433
 20
-297.2555158646
 10
625.0886568635
 20
-301.9410832737
 10
622.2525664512
 20
-306.527155163
 10
619.2688329945
 20
-310.9973262586
 10
616.1481407193
 20
-315.3355913399
 10
612.9016585406
 20
-319.5264136772
 10
609.5410084517
 20
-323.5547980329
 10
606.0782207439
 20
-327.4063225966
 10
602.5256918589
 20
-331.0671998183
 10
598.8961396082
 20
-334.5243265949
 10
595.2025557579
 20
-337.7653177258
 10
591.4581619061
 20
-340.7785861378
 10
587.6763633848
 20
-343.553332995
 10
583.8706969057
 20
-346.0796265912
 10
580.0547864374
 20
-348.3484339058
 10
576.2422918395
 20
-350.3516198378
 10
572.446860459
 20
-352.0820238186
 10
568.6820793864
 20
-353.5334447875
 10
564.9614254055
 20
-354.7006944204
 10
563.9169883039
 20
-354.9791729862
  0
LWPOLYLINE
  5
EF
330
1F
100
AcDbEntity
  8
0
  6
Continuous
 62
     1
370
    25
100
AcDbPolyline
 90
       24
 70
   128
 43
0.0
 10
455.8815105347
 20
-271.509085136
 10
456.0937093803
 20
-270.2375183167
 10
457.1074464541
 20
-264.9451080686
 10
458.3403840186
 20
-259.5964350093
 10
459.7889079817
 20
-254.2071886699
 10
461.4487667799
 20
-248.7931771543
 10
463.3150924522
 20
-243.3702815125
 10
465.3824111767
 20
-237.9544040309
 10
467.6446590756
 20
-232.5614317314
 10
470.0952032886
 20
-227.2071877033
 10
472.7268525096
 20
-221.9073672259
 10
475.5318833287
 20
-216.6775256035
 10
478.5020771104
 20
-211.5329990804
 10
481.6287199937
 20
-206.4888805064
 10
484.9026397709
 20
-201.5599554614
 10
488.3142269603
 20
-196.7606900898
 10
491.8534848564
 20
-192.1051596215
 10
495.5100268952
 20
-187.6070194746
 10
499.2731267037
 20
-183.2794641947
 10
503.1317497102
 20
-179.135184872
 10
507.0745768517
 20
-175.1863372043
 10
511.0900440866
 20
-171.444506519
 10
515.1663713708
 20
-167.9206667112
 10
516.1490936324
 20
-167.1112583428
  0
LWPOLYLINE
  5
F0
330
1F
100
AcDbEntity
  8
0
  6
Continuous
 62
     1
370
    25
100
AcDbPolyline
 90
       45
 70
   128
 43
0.0
 10
637.4565099476
 20
-206.9954431932
 10
638.9715890528
 20
-209.524167057
 10
640.520285538
 20
-212.6468885977
 10
641.8581845605
 20
-215.9910614873
 10
642.9804971844
 20
-219.5447186324
 10
643.8832089225
 20
-223.2951340704
 10
644.5630850042
 20
-227.2288868485
 10
645.0176967173
 20
-231.3318891639
 10
645.2454056031
 20
-235.5894618377
 10
645.2454056031
 20
-239.9863575133
 10
645.0176967173
 20
-244.5068372705
 10
644.5630850042
 20
-249.1347230973
 10
643.8832089225
 20
-253.8534440909
 10
642.9804971844
 20
-258.6461083168
 10
641.8581845605
 20
-263.4955600357
 10
640.520285538
 20
-268.3844382567
 10
638.9715890528
 20
-273.2952466987
 10
637.2176374153
 20
-278.2104039798
 10
635.264710506
 20
-283.112313578
 10
633.1198047017
 20
-287.9834277081
 10
630.7905907289
 20
-292.8063111967
 10
628.2854136635
 20
-297.5636962355
 10
625.6132376135
 20
-302.2385569015
 10
622.783624645
 20
-306.8141547828
 10
619.8067110752
 20
-311.2741104597
 10
616.6931468857
 20
-315.602456732
 10
613.4540851865
 20
-319.7837085797
 10
610.1011137267
 20
-323.8028844502
 10
606.6462390896
 20
-327.6456127217
 10
603.1018274242
 20
-331.2981233319
 10
599.4805688831
 20
-334.7473473958
 10
595.7954249392
 20
-337.980935452
 10
592.0595868977
 20
-340.9873118312
 10
588.2864291389
 20
-343.7557199002
 10
584.4894590692
 20
-346.2762448707
 10
580.6822678948
 20
-348.5398665514
 10
576.8784846883
 20
-350.538479782
 10
573.091726339
 20
-352.2649233253
 10
569.3355478333
 20
-353.7130329054
 10
565.6233956621
 20
-354.8776072671
 10
561.9685579365
 20
-355.7544917276
 10
558.3841173017
 20
-356.3405384378
 10
554.8829074731
 20
-356.6336558079
 10
551.4774605526
 20
-356.6327902519
 10
551.0839222572
 20
-356.6133600003
  0
ENDSEC
  0
SECTION
  2
OBJECTS
  0
DICTIONARY
  5
C
330
0
100
AcDbDictionary
281
     1
  3
ACAD_GROUP
350
D
  3
ACAD_LAYOUT
350
1A
  3
ACAD_MLINESTYLE
350
17
  3
ACAD_PLOTSETTINGS
350
19
  3
ACAD_PLOTSTYLENAME
350
E
  3
ACAD_SCALELIST
350
47
  0
DICTIONARY
  5
D
102
{ACAD_REACTORS
330
C
102
}
330
C
100
AcDbDictionary
281
     1
  0
DICTIONARY
  5
1A
102
{ACAD_REACTORS
330
C
102
}
330
C
100
AcDbDictionary
281
     1
  3
Layout1
350
1E
  3
Layout2
350
26
  3
Model
350
22
  0
DICTIONARY
  5
17
102
{ACAD_REACTORS
330
C
102
}
330
C
100
AcDbDictionary
281
     1
  3
Standard
350
18
  0
DICTIONARY
  5
19
102
{ACAD_REACTORS
330
C
102
}
330
C
100
AcDbDictionary
281
     1
  0
ACDBDICTIONARYWDFLT
  5
E
102
{ACAD_REACTORS
330
C
102
}
330
C
100
AcDbDictionary
281
     1
  3
Normal
350
F
100
AcDbDictionaryWithDefault
340
F
  0
DICTIONARY
  5
47
102
{ACAD_REACTORS
330
C
102
}
330
C
100
AcDbDictionary
281
     1
  3
A0
350
48
  3
A1
350
49
  3
A2
350
4A
  3
A3
350
4B
  3
A4
350
4C
  3
A5
350
4D
  3
A6
350
4E
  3
A7
350
4F
  3
A8
350
50
  3
A9
350
51
  3
B0
350
52
  3
B1
350
53
  3
B2
350
54
  3
B3
350
55
  3
B4
350
56
  3
B5
350
57
  3
B6
350
58
  3
B7
350
59
  3
B8
350
5A
  3
B9
350
5B
  3
C0
350
5C
  3
C1
350
5D
  3
C2
350
5E
  3
C3
350
5F
  3
C4
350
60
  3
C5
350
61
  3
C6
350
62
  3
C7
350
63
  3
C8
350
64
  3
C9
350
65
  3
D0
350
66
  3
D1
350
67
  3
D2
350
68
  0
LAYOUT
  5
1E
102
{ACAD_REACTORS
330
1A
102
}
330
1A
100
AcDbPlotSettings
  1

  2
none_device
  4

  6

 40
0.0
 41
0.0
 42
0.0
 43
0.0
 44
0.0
 45
0.0
 46
0.0
 47
0.0
 48
0.0
 49
0.0
140
0.0
141
0.0
142
1.0
143
1.0
 70
   688
 72
     1
 73
     0
 74
     5
  7

 75
    16
147
1.0
148
0.0
149
0.0
100
AcDbLayout
  1
Layout1
 70
     1
 71
     1
 10
0.0
 20
0.0
 11
420.0
 21
297.0
 12
0.0
 22
0.0
 32
0.0
 14
1.0000000000E+20
 24
1.0000000000E+20
 34
1.0000000000E+20
 15
-1.0000000000E+20
 25
-1.0000000000E+20
 35
-1.0000000000E+20
146
0.0
 13
0.0
 23
0.0
 33
0.0
 16
1.0
 26
0.0
 36
0.0
 17
0.0
 27
1.0
 37
0.0
 76
     0
330
1B
  0
LAYOUT
  5
26
102
{ACAD_REACTORS
330
1A
102
}
330
1A
100
AcDbPlotSettings
  1

  2
none_device
  4

  6

 40
0.0
 41
0.0
 42
0.0
 43
0.0
 44
0.0
 45
0.0
 46
0.0
 47
0.0
 48
0.0
 49
0.0
140
0.0
141
0.0
142
1.0
143
1.0
 70
   688
 72
     1
 73
     0
 74
     5
  7

 75
    16
147
1.0
148
0.0
149
0.0
100
AcDbLayout
  1
Layout2
 70
     1
 71
     2
 10
0.0
 20
0.0
 11
0.0
 21
0.0
 12
0.0
 22
0.0
 32
0.0
 14
0.0
 24
0.0
 34
0.0
 15
0.0
 25
0.0
 35
0.0
146
0.0
 13
0.0
 23
0.0
 33
0.0
 16
1.0
 26
0.0
 36
0.0
 17
0.0
 27
1.0
 37
0.0
 76
     0
330
23
  0
LAYOUT
  5
22
102
{ACAD_REACTORS
330
1A
102
}
330
1A
100
AcDbPlotSettings
  1

  2
none_device
  4
Letter_(8.50_x_11.00_Inches)
  6

 40
6.35
 41
6.35
 42
6.35000508
 43
6.35000508
 44
215.9
 45
279.4
 46
0.0
 47
0.0
 48
0.0
 49
0.0
140
0.0
141
0.0
142
1.0
143
1.0
 70
  1712
 72
     1
 73
     0
 74
     0
  7

 75
     0
147
1.0
148
0.0
149
0.0
100
AcDbLayout
  1
Model
 70
     1
 71
     0
 10
0.0
 20
0.0
 11
279.4
 21
215.9
 12
0.0
 22
0.0
 32
0.0
 14
0.0
 24
0.0
 34
0.0
 15
279.4
 25
215.9
 35
0.0
146
0.0
 13
0.0
 23
0.0
 33
0.0
 16
1.0
 26
0.0
 36
0.0
 17
0.0
 27
1.0
 37
0.0
 76
     0
330
1F
331
29
  0
MLINESTYLE
  5
18
102
{ACAD_REACTORS
330
17
102
}
330
17
100
AcDbMlineStyle
  2
Standard
 70
     0
  3

 62
   256
 51
90.0
 52
90.0
 71
     2
 49
0.5
 62
   256
  6
BYLAYER
 49
-0.5
 62
   256
  6
BYLAYER
  0
ACDBPLACEHOLDER
  5
F
102
{ACAD_REACTORS
330
E
102
}
330
E
  0
SCALE
  5
48
102
{ACAD_REACTORS
330
47
102
}
330
47
100
AcDbScale
 70
     0
300
1:1
140
1.0
141
1.0
290
     1
  0
SCALE
  5
49
102
{ACAD_REACTORS
330
47
102
}
330
47
100
AcDbScale
 70
     0
300
1:2
140
1.0
141
2.0
290
     0
  0
SCALE
  5
4A
102
{ACAD_REACTORS
330
47
102
}
330
47
100
AcDbScale
 70
     0
300
1:4
140
1.0
141
4.0
290
     0
  0
SCALE
  5
4B
102
{ACAD_REACTORS
330
47
102
}
330
47
100
AcDbScale
 70
     0
300
1:5
140
1.0
141
5.0
290
     0
  0
SCALE
  5
4C
102
{ACAD_REACTORS
330
47
102
}
330
47
100
AcDbScale
 70
     0
300
1:8
140
1.0
141
8.0
290
     0
  0
SCALE
  5
4D
102
{ACAD_REACTORS
330
47
102
}
330
47
100
AcDbScale
 70
     0
300
1:10
140
1.0
141
10.0
290
     0
  0
SCALE
  5
4E
102
{ACAD_REACTORS
330
47
102
}
330
47
100
AcDbScale
 70
     0
300
1:16
140
1.0
141
16.0
290
     0
  0
SCALE
  5
4F
102
{ACAD_REACTORS
330
47
102
}
330
47
100
AcDbScale
 70
     0
300
1:20
140
1.0
141
20.0
290
     0
  0
SCALE
  5
50
102
{ACAD_REACTORS
330
47
102
}
330
47
100
AcDbScale
 70
     0
300
1:30
140
1.0
141
30.0
290
     0
  0
SCALE
  5
51
102
{ACAD_REACTORS
330
47
102
}
330
47
100
AcDbScale
 70
     0
300
1:40
140
1.0
141
40.0
290
     0
  0
SCALE
  5
52
102
{ACAD_REACTORS
330
47
102
}
330
47
100
AcDbScale
 70
     0
300
1:50
140
1.0
141
50.0
290
     0
  0
SCALE
  5
53
102
{ACAD_REACTORS
330
47
102
}
330
47
100
AcDbScale
 70
     0
300
1:100
140
1.0
141
100.0
290
     0
  0
SCALE
  5
54
102
{ACAD_REACTORS
330
47
102
}
330
47
100
AcDbScale
 70
     0
300
2:1
140
2.0
141
1.0
290
     0
  0
SCALE
  5
55
102
{ACAD_REACTORS
330
47
102
}
330
47
100
AcDbScale
 70
     0
300
4:1
140
4.0
141
1.0
290
     0
  0
SCALE
  5
56
102
{ACAD_REACTORS
330
47
102
}
330
47
100
AcDbScale
 70
     0
300
8:1
140
8.0
141
1.0
290
     0
  0
SCALE
  5
57
102
{ACAD_REACTORS
330
47
102
}
330
47
100
AcDbScale
 70
     0
300
10:1
140
10.0
141
1.0
290
     0
  0
SCALE
  5
58
102
{ACAD_REACTORS
330
47
102
}
330
47
100
AcDbScale
 70
     0
300
100:1
140
100.0
141
1.0
290
     0
  0
SCALE
  5
59
102
{ACAD_REACTORS
330
47
102
}
330
47
100
AcDbScale
 70
     0
300
1/128" = 1'-0"
140
0.0078125
141
12.0
290
     0
  0
SCALE
  5
5A
102
{ACAD_REACTORS
330
47
102
}
330
47
100
AcDbScale
 70
     0
300
1/64" = 1'-0"
140
0.015625
141
12.0
290
     0
  0
SCALE
  5
5B
102
{ACAD_REACTORS
330
47
102
}
330
47
100
AcDbScale
 70
     0
300
1/32" = 1'-0"
140
0.03125
141
12.0
290
     0
  0
SCALE
  5
5C
102
{ACAD_REACTORS
330
47
102
}
330
47
100
AcDbScale
 70
     0
300
1/16" = 1'-0"
140
0.0625
141
12.0
290
     0
  0
SCALE
  5
5D
102
{ACAD_REACTORS
330
47
102
}
330
47
100
AcDbScale
 70
     0
300
3/32" = 1'-0"
140
0.09375
141
12.0
290
     0
  0
SCALE
  5
5E
102
{ACAD_REACTORS
330
47
102
}
330
47
100
AcDbScale
 70
     0
300
1/8" = 1'-0"
140
0.125
141
12.0
290
     0
  0
SCALE
  5
5F
102
{ACAD_REACTORS
330
47
102
}
330
47
100
AcDbScale
 70
     0
300
3/16" = 1'-0"
140
0.1875
141
12.0
290
     0
  0
SCALE
  5
60
102
{ACAD_REACTORS
330
47
102
}
330
47
100
AcDbScale
 70
     0
300
1/4" = 1'-0"
140
0.25
141
12.0
290
     0
  0
SCALE
  5
61
102
{ACAD_REACTORS
330
47
102
}
330
47
100
AcDbScale
 70
     0
300
3/8" = 1'-0"
140
0.375
141
12.0
290
     0
  0
SCALE
  5
62
102
{ACAD_REACTORS
330
47
102
}
330
47
100
AcDbScale
 70
     0
300
1/2" = 1'-0"
140
0.5
141
12.0
290
     0
  0
SCALE
  5
63
102
{ACAD_REACTORS
330
47
102
}
330
47
100
AcDbScale
 70
     0
300
3/4" = 1'-0"
140
0.75
141
12.0
290
     0
  0
SCALE
  5
64
102
{ACAD_REACTORS
330
47
102
}
330
47
100
AcDbScale
 70
     0
300
1" = 1'-0"
140
1.0
141
12.0
290
     0
  0
SCALE
  5
65
102
{ACAD_REACTORS
330
47
102
}
330
47
100
AcDbScale
 70
     0
300
1-1/2" = 1'-0"
140
1.5
141
12.0
290
     0
  0
SCALE
  5
66
102
{ACAD_REACTORS
330
47
102
}
330
47
100
AcDbScale
 70
     0
300
3" = 1'-0"
140
3.0
141
12.0
290
     0
  0
SCALE
  5
67
102
{ACAD_REACTORS
330
47
102
}
330
47
100
AcDbScale
 70
     0
300
6" = 1'-0"
140
6.0
141
12.0
290
     0
  0
SCALE
  5
68
102
{ACAD_REACTORS
330
47
102
}
330
47
100
AcDbScale
 70
     0
300
1'-0" = 1'-0"
140
12.0
141
12.0
290
     0
  0
ENDSEC
  0
EOF
